  0
SECTION
  2
HEADER
  9
$ACADVER
  1
AC1009
  9
$INSBASE
 10
79.76844101988766
 20
-560.2983613683379
 30
0.0
  9
$EXTMIN
 10
78.94001389514157
 20
-560.8161283213042
 30
0.0
  9
$EXTMAX
 10
1775.636552058448
 20
1243.687789635776
 30
0.0
  9
$LIMMIN
 10
0.0
 20
0.0
  9
$LIMMAX
 10
420.0
 20
297.0
  9
$ORTHOMODE
 70
     1
  9
$REGENMODE
 70
     1
  9
$FILLMODE
 70
     1
  9
$QTEXTMODE
 70
     0
  9
$MIRRTEXT
 70
     0
  9
$DRAGMODE
 70
     2
  9
$LTSCALE
 40
1.0
  9
$OSMODE
 70
     0
  9
$ATTMODE
 70
     1
  9
$TEXTSIZE
 40
3.5
  9
$TRACEWID
 40
0.05
  9
$TEXTSTYLE
  7
STANDARD
  9
$CLAYER
  8
0
  9
$CELTYPE
  6
BYLAYER
  9
$CECOLOR
 62
   256
  9
$DIMSCALE
 40
1.0
  9
$DIMASZ
 40
2.5
  9
$DIMEXO
 40
1.0
  9
$DIMDLI
 40
8.0
  9
$DIMRND
 40
0.0
  9
$DIMDLE
 40
0.0
  9
$DIMEXE
 40
2.0
  9
$DIMTP
 40
0.1
  9
$DIMTM
 40
0.1
  9
$DIMTXT
 40
3.5
  9
$DIMCEN
 40
2.0
  9
$DIMTSZ
 40
0.0
  9
$DIMTOL
 70
     0
  9
$DIMLIM
 70
     0
  9
$DIMTIH
 70
     0
  9
$DIMTOH
 70
     0
  9
$DIMSE1
 70
     0
  9
$DIMSE2
 70
     0
  9
$DIMTAD
 70
     1
  9
$DIMZIN
 70
     8
  9
$DIMBLK
  1

  9
$DIMASO
 70
     0
  9
$DIMSHO
 70
     0
  9
$DIMPOST
  1

  9
$DIMAPOST
  1

  9
$DIMALT
 70
     0
  9
$DIMALTD
 70
     2
  9
$DIMALTF
 40
25.39999999999999
  9
$DIMLFAC
 40
1.0
  9
$DIMTOFL
 70
     1
  9
$DIMTVP
 40
0.0
  9
$DIMTIX
 70
     0
  9
$DIMSOXD
 70
     0
  9
$DIMSAH
 70
     0
  9
$DIMBLK1
  1

  9
$DIMBLK2
  1

  9
$DIMSTYLE
  2
*UNNAMED
  9
$DIMCLRD
 70
     0
  9
$DIMCLRE
 70
     0
  9
$DIMCLRT
 70
     0
  9
$DIMTFAC
 40
1.0
  9
$DIMGAP
 40
0.09
  9
$LUNITS
 70
     2
  9
$LUPREC
 70
     3
  9
$SKETCHINC
 40
0.1
  9
$FILLETRAD
 40
20.0
  9
$AUNITS
 70
     0
  9
$AUPREC
 70
     3
  9
$MENU
  1

  9
$ELEVATION
 40
0.0
  9
$PELEVATION
 40
0.0
  9
$THICKNESS
 40
0.0
  9
$LIMCHECK
 70
     0
  9
$BLIPMODE
 70
     0
  9
$CHAMFERA
 40
0.0
  9
$CHAMFERB
 40
0.0
  9
$SKPOLY
 70
     1
  9
$TDCREATE
 40
2449310.442610416
  9
$TDUPDATE
 40
2449393.435413541
  9
$TDINDWG
 40
0.0000438657
  9
$TDUSRTIMER
 40
0.0000438657
  9
$USRTIMER
 70
     1
  9
$ANGBASE
 50
0.0
  9
$ANGDIR
 70
     0
  9
$PDMODE
 70
     3
  9
$PDSIZE
 40
2.0
  9
$PLINEWID
 40
0.0
  9
$COORDS
 70
     2
  9
$SPLFRAME
 70
     0
  9
$SPLINETYPE
 70
     6
  9
$SPLINESEGS
 70
     8
  9
$ATTDIA
 70
     1
  9
$ATTREQ
 70
     1
  9
$HANDLING
 70
     0
  9
$HANDSEED
  5
18A
  9
$SURFTAB1
 70
     6
  9
$SURFTAB2
 70
     6
  9
$SURFTYPE
 70
     6
  9
$SURFU
 70
     6
  9
$SURFV
 70
     6
  9
$UCSNAME
  2

  9
$UCSORG
 10
0.0
 20
0.0
 30
0.0
  9
$UCSXDIR
 10
1.0
 20
0.0
 30
0.0
  9
$UCSYDIR
 10
0.0
 20
1.0
 30
0.0
  9
$PUCSNAME
  2

  9
$PUCSORG
 10
0.0
 20
0.0
 30
0.0
  9
$PUCSXDIR
 10
1.0
 20
0.0
 30
0.0
  9
$PUCSYDIR
 10
0.0
 20
1.0
 30
0.0
  9
$USERI1
 70
     0
  9
$USERI2
 70
     3
  9
$USERI3
 70
    15
  9
$USERI4
 70
     0
  9
$USERI5
 70
     0
  9
$USERR1
 40
0.0
  9
$USERR2
 40
1.0
  9
$USERR3
 40
0.0
  9
$USERR4
 40
1.0
  9
$USERR5
 40
0.0
  9
$WORLDVIEW
 70
     1
  9
$SHADEDGE
 70
     3
  9
$SHADEDIF
 70
    70
  9
$TILEMODE
 70
     1
  9
$MAXACTVP
 70
    16
  9
$PINSBASE
 10
79.76844101988766
 20
-560.2983613683379
 30
0.0
  9
$PLIMCHECK
 70
     0
  9
$PEXTMIN
 10
1.000000000000000E+20
 20
1.000000000000000E+20
 30
1.000000000000000E+20
  9
$PEXTMAX
 10
-1.000000000000000E+20
 20
-1.000000000000000E+20
 30
-1.000000000000000E+20
  9
$PLIMMIN
 10
0.0
 20
0.0
  9
$PLIMMAX
 10
12.0
 20
9.0
  9
$UNITMODE
 70
     0
  9
$VISRETAIN
 70
     0
  9
$PLINEGEN
 70
     0
  9
$PSLTSCALE
 70
     0
  9
$TREEDEPTH
 70
  3020
  9
$DWGCODEPAGE
  3
undefined
  0
ENDSEC
  0
SECTION
  2
TABLES
  0
TABLE
  2
VPORT
 70
     2
  0
VPORT
  2
*ACTIVE
 70
     0
 10
0.0
 20
0.0
 11
1.0
 21
1.0
 12
1324.599014252281
 22
415.5222151062081
 13
0.0
 23
0.0
 14
7.0
 24
7.0
 15
0.0
 25
0.0
 16
0.0
 26
0.0
 36
1.0
 17
0.0
 27
0.0
 37
0.0
 40
1951.641152949092
 41
1.275675675675675
 42
50.0
 43
0.0
 44
0.0
 50
0.0
 51
0.0
 71
     0
 72
 10000
 73
     1
 74
     0
 75
     0
 76
     0
 77
     0
 78
     0
  0
ENDTAB
  0
TABLE
  2
LTYPE
 70
     1
  0
LTYPE
  2
AUSGEZOGEN
 70
    64
  3
Solid line
 72
    65
 73
     0
 40
0.0
  0
ENDTAB
  0
TABLE
  2
LAYER
 70
     3
  0
LAYER
  2
0
 70
     0
 62
     7
  6
AUSGEZOGEN
  0
LAYER
  2
ITEM_50
 70
    64
 62
     7
  6
AUSGEZOGEN
  0
LAYER
  2
ITEM_25
 70
    64
 62
     3
  6
AUSGEZOGEN
  0
ENDTAB
  0
TABLE
  2
STYLE
 70
     1
  0
STYLE
  2
STANDARD
 70
     0
 40
0.0
 41
1.0
 50
0.0
 71
     0
 42
3.5
  3
iso
  4

  0
ENDTAB
  0
TABLE
  2
VIEW
 70
     0
  0
ENDTAB
  0
TABLE
  2
UCS
 70
     0
  0
ENDTAB
  0
TABLE
  2
APPID
 70
     1
  0
APPID
  2
ACAD
 70
    64
  0
ENDTAB
  0
TABLE
  2
DIMSTYLE
 70
     0
  0
ENDTAB
  0
ENDSEC
  0
SECTION
  2
BLOCKS
  0
ENDSEC
  0
SECTION
  2
ENTITIES
  0
LINE
  8
ITEM_50
 10
119.7684410198966
 20
987.8593625110212
 30
0.0
 11
839.7684410198966
 21
987.8593625110212
 31
0.0
  0
ARC
  8
ITEM_50
 10
115.7684410198976
 20
1238.859362511029
 30
0.0
 40
4.0
 50
0.0
 51
90.00000000002931
  0
LINE
  8
ITEM_50
 10
119.7684410198956
 20
1206.859362511029
 30
0.0
 11
119.7684410198976
 21
1238.859362511029
 31
0.0
  0
ARC
  8
ITEM_50
 10
115.7684410198956
 20
1206.859362511029
 30
0.0
 40
4.0
 50
270.0
 51
359.9999999999963
  0
LINE
  8
ITEM_50
 10
83.76844101989564
 20
1202.859362511029
 30
0.0
 11
115.7684410198956
 21
1202.859362511029
 31
0.0
  0
ARC
  8
ITEM_50
 10
83.76844101989561
 20
1206.859362511029
 30
0.0
 40
4.0
 50
180.0
 51
270.0000000000003
  0
ARC
  8
ITEM_50
 10
83.76844101989561
 20
1238.859362511029
 30
0.0
 40
4.0
 50
90.0
 51
180.0
  0
LINE
  8
ITEM_25
 10
82.26844101989556
 20
1237.859362511029
 30
0.0
 11
82.26844101989559
 21
1207.859362511029
 31
0.0
  0
LINE
  8
ITEM_25
 10
114.7684410198956
 20
1240.359362511029
 30
0.0
 11
84.76844101989556
 21
1240.359362511029
 31
0.0
  0
LINE
  8
ITEM_50
 10
115.7684410198956
 20
1242.859362511029
 30
0.0
 11
83.76844101989561
 21
1242.859362511012
 31
0.0
  0
LINE
  8
ITEM_50
 10
79.76844101989561
 20
1238.859362511029
 30
0.0
 11
79.76844101989561
 21
1206.859362511029
 31
0.0
  0
LINE
  8
ITEM_25
 10
84.76844101989559
 20
1205.359362511029
 30
0.0
 11
114.7684410198956
 21
1205.359362511029
 31
0.0
  0
LINE
  8
ITEM_25
 10
117.2684410198956
 20
1207.859362511029
 30
0.0
 11
117.2684410198956
 21
1237.859362511029
 31
0.0
  0
ARC
  8
ITEM_50
 10
843.7684410198955
 20
1206.859362511012
 30
0.0
 40
4.0
 50
180.0
 51
270.0000000000293
  0
LINE
  8
ITEM_50
 10
839.7684410198976
 20
1238.859362511012
 30
0.0
 11
839.7684410198955
 21
1206.859362511012
 31
0.0
  0
ARC
  8
ITEM_50
 10
843.7684410198976
 20
1238.859362511012
 30
0.0
 40
4.0
 50
90.0
 51
179.9999999999963
  0
LINE
  8
ITEM_50
 10
875.7684410198976
 20
1242.859362511012
 30
0.0
 11
843.7684410198976
 21
1242.859362511012
 31
0.0
  0
ARC
  8
ITEM_50
 10
875.7684410198976
 20
1238.859362511012
 30
0.0
 40
4.0
 50
0.0
 51
90.00000000000039
  0
ARC
  8
ITEM_50
 10
875.7684410198976
 20
1206.859362511012
 30
0.0
 40
4.0
 50
270.0
 51
0.0
  0
LINE
  8
ITEM_25
 10
877.2684410198977
 20
1207.859362511012
 30
0.0
 11
877.2684410198976
 21
1237.859362511012
 31
0.0
  0
LINE
  8
ITEM_25
 10
844.7684410198976
 20
1205.359362511012
 30
0.0
 11
874.7684410198977
 21
1205.359362511012
 31
0.0
  0
LINE
  8
ITEM_50
 10
843.7684410198976
 20
1202.859362511012
 30
0.0
 11
875.7684410198976
 21
1202.859362511029
 31
0.0
  0
LINE
  8
ITEM_50
 10
879.7684410198976
 20
1206.859362511012
 30
0.0
 11
879.7684410198976
 21
1238.859362511012
 31
0.0
  0
LINE
  8
ITEM_25
 10
874.7684410198976
 20
1240.359362511012
 30
0.0
 11
844.7684410198976
 21
1240.359362511012
 31
0.0
  0
LINE
  8
ITEM_25
 10
842.2684410198976
 20
1237.859362511012
 30
0.0
 11
842.2684410198976
 21
1207.859362511012
 31
0.0
  0
LINE
  8
ITEM_50
 10
119.7684410198966
 20
1202.859362511021
 30
0.0
 11
839.7684410198967
 21
1202.859362511021
 31
0.0
  0
LINE
  8
ITEM_50
 10
839.7684410198967
 20
1202.859362511021
 30
0.0
 11
839.7684410198967
 21
1242.859362511021
 31
0.0
  0
LINE
  8
ITEM_50
 10
839.7684410198967
 20
1242.859362511021
 30
0.0
 11
119.7684410198966
 21
1242.859362511021
 31
0.0
  0
LINE
  8
ITEM_50
 10
119.7684410198966
 20
1242.859362511021
 30
0.0
 11
119.7684410198966
 21
1202.859362511021
 31
0.0
  0
LINE
  8
ITEM_50
 10
119.7684410198966
 20
1218.859362511021
 30
0.0
 11
839.7684410198967
 21
1218.859362511021
 31
0.0
  0
LINE
  8
ITEM_50
 10
839.7684410198967
 20
1226.859362511021
 30
0.0
 11
119.7684410198966
 21
1226.859362511021
 31
0.0
  0
LINE
  8
ITEM_50
 10
119.7684410198966
 20
332.8593625110212
 30
0.0
 11
79.76844101989667
 21
332.8593625110212
 31
0.0
  0
LINE
  8
ITEM_50
 10
79.76844101989667
 20
332.8593625110212
 30
0.0
 11
79.76844101989667
 21
1202.859362511021
 31
0.0
  0
LINE
  8
ITEM_50
 10
79.76844101989667
 20
1202.859362511021
 30
0.0
 11
119.7684410198966
 21
1202.859362511021
 31
0.0
  0
LINE
  8
ITEM_50
 10
119.7684410198966
 20
1202.859362511021
 30
0.0
 11
119.7684410198966
 21
332.8593625110212
 31
0.0
  0
LINE
  8
ITEM_50
 10
103.7684410198966
 20
332.8593625110212
 30
0.0
 11
103.7684410198966
 21
1202.859362511021
 31
0.0
  0
LINE
  8
ITEM_50
 10
95.76844101989667
 20
1202.859362511021
 30
0.0
 11
95.76844101989667
 21
332.8593625110212
 31
0.0
  0
LINE
  8
ITEM_50
 10
839.7684410198966
 20
332.8593625110212
 30
0.0
 11
879.7684410198966
 21
332.8593625110212
 31
0.0
  0
LINE
  8
ITEM_50
 10
879.7684410198966
 20
332.8593625110212
 30
0.0
 11
879.7684410198966
 21
1202.859362511021
 31
0.0
  0
LINE
  8
ITEM_50
 10
879.7684410198966
 20
1202.859362511021
 30
0.0
 11
839.7684410198966
 21
1202.859362511021
 31
0.0
  0
LINE
  8
ITEM_50
 10
839.7684410198966
 20
1202.859362511021
 30
0.0
 11
839.7684410198966
 21
332.8593625110212
 31
0.0
  0
LINE
  8
ITEM_50
 10
855.7684410198966
 20
332.8593625110212
 30
0.0
 11
855.7684410198966
 21
1202.859362511021
 31
0.0
  0
LINE
  8
ITEM_50
 10
863.7684410198966
 20
1202.859362511021
 30
0.0
 11
863.7684410198966
 21
332.8593625110212
 31
0.0
  0
ARC
  8
ITEM_50
 10
83.76844101988848
 20
328.8593625110222
 30
0.0
 40
4.0
 50
90.00000000000002
 51
180.0000000000292
  0
LINE
  8
ITEM_50
 10
115.7684410198885
 20
332.8593625110202
 30
0.0
 11
83.76844101988848
 21
332.8593625110222
 31
0.0
  0
ARC
  8
ITEM_50
 10
115.7684410198882
 20
328.8593625110202
 30
0.0
 40
4.0
 50
0.0
 51
89.99999999999633
  0
LINE
  8
ITEM_50
 10
119.7684410198885
 20
296.8593625110202
 30
0.0
 11
119.7684410198882
 21
328.8593625110202
 31
0.0
  0
ARC
  8
ITEM_50
 10
115.7684410198885
 20
296.8593625110202
 30
0.0
 40
4.0
 50
270.0
 51
0.0000000000004071
  0
ARC
  8
ITEM_50
 10
83.76844101988848
 20
296.8593625110202
 30
0.0
 40
4.0
 50
180.0
 51
270.0
  0
LINE
  8
ITEM_25
 10
84.76844101988848
 20
295.35936251102
 30
0.0
 11
114.7684410198885
 21
295.3593625110201
 31
0.0
  0
LINE
  8
ITEM_25
 10
82.26844101988848
 20
327.8593625110202
 30
0.0
 11
82.26844101988848
 21
297.85936251102
 31
0.0
  0
LINE
  8
ITEM_50
 10
79.76844101988848
 20
328.8593625110202
 30
0.0
 11
79.76844101990485
 21
296.8593625110202
 31
0.0
  0
LINE
  8
ITEM_50
 10
83.76844101988848
 20
292.8593625110202
 30
0.0
 11
115.7684410198885
 21
292.8593625110202
 31
0.0
  0
LINE
  8
ITEM_25
 10
117.2684410198884
 20
297.8593625110201
 30
0.0
 11
117.2684410198885
 21
327.8593625110202
 31
0.0
  0
LINE
  8
ITEM_25
 10
114.7684410198885
 20
330.3593625110202
 30
0.0
 11
84.76844101988848
 21
330.3593625110202
 31
0.0
  0
LINE
  8
ITEM_50
 10
119.7684410198966
 20
332.8593625110212
 30
0.0
 11
839.7684410198967
 21
332.8593625110212
 31
0.0
  0
LINE
  8
ITEM_50
 10
839.7684410198967
 20
332.8593625110212
 30
0.0
 11
839.7684410198967
 21
292.8593625110212
 31
0.0
  0
LINE
  8
ITEM_50
 10
839.7684410198967
 20
292.8593625110212
 30
0.0
 11
119.7684410198966
 21
292.8593625110212
 31
0.0
  0
LINE
  8
ITEM_50
 10
119.7684410198966
 20
292.8593625110212
 30
0.0
 11
119.7684410198966
 21
332.8593625110212
 31
0.0
  0
LINE
  8
ITEM_50
 10
119.7684410198966
 20
316.8593625110212
 30
0.0
 11
839.7684410198967
 21
316.8593625110212
 31
0.0
  0
LINE
  8
ITEM_50
 10
839.7684410198967
 20
308.8593625110212
 30
0.0
 11
119.7684410198966
 21
308.8593625110212
 31
0.0
  0
ARC
  8
ITEM_50
 10
843.7684410198884
 20
328.8593625110222
 30
0.0
 40
4.0
 50
90.00000000000002
 51
180.0000000000292
  0
LINE
  8
ITEM_50
 10
875.7684410198884
 20
332.8593625110202
 30
0.0
 11
843.7684410198884
 21
332.8593625110222
 31
0.0
  0
ARC
  8
ITEM_50
 10
875.7684410198882
 20
328.8593625110202
 30
0.0
 40
4.0
 50
0.0
 51
89.99999999999633
  0
LINE
  8
ITEM_50
 10
879.7684410198884
 20
296.8593625110202
 30
0.0
 11
879.7684410198882
 21
328.8593625110202
 31
0.0
  0
ARC
  8
ITEM_50
 10
875.7684410198884
 20
296.8593625110202
 30
0.0
 40
4.0
 50
270.0
 51
0.0000000000004071
  0
ARC
  8
ITEM_50
 10
843.7684410198884
 20
296.8593625110202
 30
0.0
 40
4.0
 50
180.0
 51
270.0
  0
LINE
  8
ITEM_25
 10
844.7684410198884
 20
295.35936251102
 30
0.0
 11
874.7684410198884
 21
295.3593625110201
 31
0.0
  0
LINE
  8
ITEM_25
 10
842.2684410198884
 20
327.8593625110202
 30
0.0
 11
842.2684410198884
 21
297.85936251102
 31
0.0
  0
LINE
  8
ITEM_50
 10
839.7684410198884
 20
328.8593625110202
 30
0.0
 11
839.7684410199047
 21
296.8593625110202
 31
0.0
  0
LINE
  8
ITEM_50
 10
843.7684410198884
 20
292.8593625110202
 30
0.0
 11
875.7684410198884
 21
292.8593625110202
 31
0.0
  0
LINE
  8
ITEM_25
 10
877.2684410198884
 20
297.8593625110201
 30
0.0
 11
877.2684410198884
 21
327.8593625110202
 31
0.0
  0
LINE
  8
ITEM_25
 10
874.7684410198884
 20
330.3593625110202
 30
0.0
 11
844.7684410198884
 21
330.3593625110202
 31
0.0
  0
LINE
  8
ITEM_50
 10
83.76844101989667
 20
286.8593625110212
 30
0.0
 11
83.76844101989667
 21
276.8593625110212
 31
0.0
  0
LINE
  8
ITEM_50
 10
115.7684410198966
 20
286.8593625110212
 30
0.0
 11
115.7684410198966
 21
276.8593625110212
 31
0.0
  0
LINE
  8
ITEM_50
 10
79.76844101989667
 20
292.8593625110212
 30
0.0
 11
79.76844101989667
 21
286.8593625110212
 31
0.0
  0
LINE
  8
ITEM_50
 10
119.7684410198966
 20
292.8593625110212
 30
0.0
 11
79.76844101989667
 21
292.8593625110212
 31
0.0
  0
LINE
  8
ITEM_50
 10
119.7684410198966
 20
286.8593625110212
 30
0.0
 11
119.7684410198966
 21
292.8593625110212
 31
0.0
  0
LINE
  8
ITEM_50
 10
79.76844101989667
 20
286.8593625110212
 30
0.0
 11
119.7684410198966
 21
286.8593625110212
 31
0.0
  0
LINE
  8
ITEM_50
 10
79.76844101989667
 20
274.8593625110212
 30
0.0
 11
119.7335308900492
 21
274.8593625110212
 31
0.0
  0
LINE
  8
ITEM_50
 10
80.74853146943561
 20
248.8593625110212
 30
0.0
 11
118.7883505703577
 21
248.8593625110212
 31
0.0
  0
LINE
  8
ITEM_50
 10
95.09953374277881
 20
274.8593625110212
 30
0.0
 11
95.21362825430827
 21
248.8593625110212
 31
0.0
  0
LINE
  8
ITEM_50
 10
92.11477237259506
 20
274.8593625110212
 30
0.0
 11
92.30180576903936
 21
248.8593625110212
 31
0.0
  0
LINE
  8
ITEM_50
 10
89.31846972557781
 20
274.8593625110212
 30
0.0
 11
89.573836623988
 21
248.8593625110212
 31
0.0
  0
LINE
  8
ITEM_50
 10
86.77948005329309
 20
274.8593625110212
 30
0.0
 11
87.09689247311661
 21
248.8593625110212
 31
0.0
  0
LINE
  8
ITEM_50
 10
84.56032170789609
 20
274.8593625110212
 30
0.0
 11
84.93196390192511
 21
248.8593625110212
 31
0.0
  0
LINE
  8
ITEM_50
 10
82.71563773281485
 20
274.8593625110212
 30
0.0
 11
83.13235863682237
 21
248.8593625110212
 31
0.0
  0
LINE
  8
ITEM_50
 10
81.29085036967092
 20
274.8593625110212
 30
0.0
 11
81.74238893198335
 21
248.8593625110212
 31
0.0
  0
LINE
  8
ITEM_50
 10
80.32104261194305
 20
274.8593625110212
 30
0.0
 11
80.79628045458593
 21
248.8593625110212
 31
0.0
  0
LINE
  8
ITEM_50
 10
98.19925910534007
 20
274.8593625110212
 30
0.0
 11
98.23760534642295
 21
248.8593625110212
 31
0.0
  0
LINE
  8
ITEM_50
 10
119.2158394278503
 20
274.8593625110212
 30
0.0
 11
118.7406015852074
 21
248.8593625110212
 31
0.0
  0
LINE
  8
ITEM_50
 10
118.2460316701224
 20
274.8593625110212
 30
0.0
 11
117.79449310781
 21
248.8593625110212
 31
0.0
  0
LINE
  8
ITEM_50
 10
116.8212443069785
 20
274.8593625110212
 30
0.0
 11
116.404523402971
 21
248.8593625110212
 31
0.0
  0
LINE
  8
ITEM_50
 10
114.9765603318973
 20
274.8593625110212
 30
0.0
 11
114.6049181378682
 21
248.8593625110212
 31
0.0
  0
LINE
  8
ITEM_50
 10
112.7574019865002
 20
274.8593625110212
 30
0.0
 11
112.4399895666767
 21
248.8593625110212
 31
0.0
  0
LINE
  8
ITEM_50
 10
110.2184123142155
 20
274.8593625110212
 30
0.0
 11
109.9630454158053
 21
248.8593625110212
 31
0.0
  0
LINE
  8
ITEM_50
 10
107.4221096671983
 20
274.8593625110212
 30
0.0
 11
107.235076270754
 21
248.8593625110212
 31
0.0
  0
LINE
  8
ITEM_50
 10
104.4373482970145
 20
274.8593625110212
 30
0.0
 11
104.3232537854851
 21
248.8593625110212
 31
0.0
  0
LINE
  8
ITEM_50
 10
101.3376229344533
 20
274.8593625110212
 30
0.0
 11
101.2992766933704
 21
248.8593625110212
 31
0.0
  0
ARC
  8
ITEM_50
 10
118.7883505703577
 20
249.3593625110212
 30
0.0
 40
0.5
 50
270.0
 51
358.9999999999999
  0
ARC
  8
ITEM_50
 10
80.74853146943561
 20
249.3593625110212
 30
0.0
 40
0.5
 50
181.0
 51
270.0
  0
ARC
  8
ITEM_50
 10
114.2440274318396
 20
246.8593625110212
 30
0.0
 40
4.0
 50
269.9999999999999
 51
358.9999999999999
  0
ARC
  8
ITEM_50
 10
85.29285460795372
 20
246.8593625110212
 30
0.0
 40
4.0
 50
181.0
 51
270.0
  0
LINE
  8
ITEM_50
 10
85.29285460795372
 20
242.8593625110212
 30
0.0
 11
114.2440274318396
 21
242.8593625110212
 31
0.0
  0
LINE
  8
ITEM_50
 10
118.2795468738716
 20
248.8593625110212
 30
0.0
 11
118.2434182124651
 21
246.7895528852721
 31
0.0
  0
LINE
  8
ITEM_50
 10
119.7684410199056
 20
276.8593625110212
 30
0.0
 11
119.2882744179359
 21
249.3506363078026
 31
0.0
  0
LINE
  8
ITEM_50
 10
81.25733516592165
 20
248.8593625110212
 30
0.0
 11
81.29346382732816
 21
246.7895528852721
 31
0.0
  0
LINE
  8
ITEM_50
 10
79.76844101988766
 20
276.8593625110212
 30
0.0
 11
80.24860762185741
 21
249.3506363078026
 31
0.0
  0
LINE
  8
ITEM_50
 10
79.76844101989667
 20
276.8593625110212
 30
0.0
 11
119.7684410198966
 21
276.8593625110212
 31
0.0
  0
LINE
  8
ITEM_50
 10
843.7684410198966
 20
286.8593625110212
 30
0.0
 11
843.7684410198966
 21
276.8593625110212
 31
0.0
  0
LINE
  8
ITEM_50
 10
875.7684410198966
 20
286.8593625110212
 30
0.0
 11
875.7684410198966
 21
276.8593625110212
 31
0.0
  0
LINE
  8
ITEM_50
 10
839.7684410198966
 20
274.8593625110212
 30
0.0
 11
879.7335308900492
 21
274.8593625110212
 31
0.0
  0
LINE
  8
ITEM_50
 10
840.7485314694355
 20
248.8593625110212
 30
0.0
 11
878.7883505703576
 21
248.8593625110212
 31
0.0
  0
LINE
  8
ITEM_50
 10
855.0995337427787
 20
274.8593625110212
 30
0.0
 11
855.2136282543082
 21
248.8593625110212
 31
0.0
  0
LINE
  8
ITEM_50
 10
852.1147723725949
 20
274.8593625110212
 30
0.0
 11
852.3018057690393
 21
248.8593625110212
 31
0.0
  0
LINE
  8
ITEM_50
 10
849.3184697255777
 20
274.8593625110212
 30
0.0
 11
849.5738366239879
 21
248.8593625110212
 31
0.0
  0
LINE
  8
ITEM_50
 10
846.779480053293
 20
274.8593625110212
 30
0.0
 11
847.0968924731165
 21
248.8593625110212
 31
0.0
  0
LINE
  8
ITEM_50
 10
844.560321707896
 20
274.8593625110212
 30
0.0
 11
844.931963901925
 21
248.8593625110212
 31
0.0
  0
LINE
  8
ITEM_50
 10
842.7156377328147
 20
274.8593625110212
 30
0.0
 11
843.1323586368223
 21
248.8593625110212
 31
0.0
  0
LINE
  8
ITEM_50
 10
841.2908503696708
 20
274.8593625110212
 30
0.0
 11
841.7423889319833
 21
248.8593625110212
 31
0.0
  0
LINE
  8
ITEM_50
 10
840.3210426119429
 20
274.8593625110212
 30
0.0
 11
840.7962804545859
 21
248.8593625110212
 31
0.0
  0
LINE
  8
ITEM_50
 10
858.19925910534
 20
274.8593625110212
 30
0.0
 11
858.2376053464229
 21
248.8593625110212
 31
0.0
  0
LINE
  8
ITEM_50
 10
879.2158394278502
 20
274.8593625110212
 30
0.0
 11
878.7406015852074
 21
248.8593625110212
 31
0.0
  0
LINE
  8
ITEM_50
 10
878.2460316701224
 20
274.8593625110212
 30
0.0
 11
877.79449310781
 21
248.8593625110212
 31
0.0
  0
LINE
  8
ITEM_50
 10
876.8212443069785
 20
274.8593625110212
 30
0.0
 11
876.4045234029709
 21
248.8593625110212
 31
0.0
  0
LINE
  8
ITEM_50
 10
874.9765603318971
 20
274.8593625110212
 30
0.0
 11
874.6049181378682
 21
248.8593625110212
 31
0.0
  0
LINE
  8
ITEM_50
 10
872.7574019865002
 20
274.8593625110212
 30
0.0
 11
872.4399895666767
 21
248.8593625110212
 31
0.0
  0
LINE
  8
ITEM_50
 10
870.2184123142155
 20
274.8593625110212
 30
0.0
 11
869.9630454158053
 21
248.8593625110212
 31
0.0
  0
LINE
  8
ITEM_50
 10
867.4221096671982
 20
274.8593625110212
 30
0.0
 11
867.235076270754
 21
248.8593625110212
 31
0.0
  0
LINE
  8
ITEM_50
 10
864.4373482970145
 20
274.8593625110212
 30
0.0
 11
864.3232537854851
 21
248.8593625110212
 31
0.0
  0
LINE
  8
ITEM_50
 10
861.3376229344532
 20
274.8593625110212
 30
0.0
 11
861.2992766933704
 21
248.8593625110212
 31
0.0
  0
ARC
  8
ITEM_50
 10
878.7883505703576
 20
249.3593625110212
 30
0.0
 40
0.5
 50
270.0
 51
358.9999999999999
  0
ARC
  8
ITEM_50
 10
840.7485314694355
 20
249.3593625110212
 30
0.0
 40
0.5
 50
181.0
 51
270.0
  0
ARC
  8
ITEM_50
 10
874.2440274318395
 20
246.8593625110212
 30
0.0
 40
4.0
 50
269.9999999999999
 51
358.9999999999999
  0
ARC
  8
ITEM_50
 10
845.2928546079537
 20
246.8593625110212
 30
0.0
 40
4.0
 50
181.0
 51
270.0
  0
LINE
  8
ITEM_50
 10
845.2928546079537
 20
242.8593625110212
 30
0.0
 11
874.2440274318395
 21
242.8593625110212
 31
0.0
  0
LINE
  8
ITEM_50
 10
878.2795468738715
 20
248.8593625110212
 30
0.0
 11
878.2434182124651
 21
246.7895528852721
 31
0.0
  0
LINE
  8
ITEM_50
 10
879.7684410199055
 20
276.8593625110212
 30
0.0
 11
879.2882744179358
 21
249.3506363078026
 31
0.0
  0
LINE
  8
ITEM_50
 10
841.2573351659216
 20
248.8593625110212
 30
0.0
 11
841.293463827328
 21
246.7895528852721
 31
0.0
  0
LINE
  8
ITEM_50
 10
839.7684410198876
 20
276.8593625110212
 30
0.0
 11
840.2486076218573
 21
249.3506363078026
 31
0.0
  0
LINE
  8
ITEM_50
 10
839.7684410198966
 20
276.8593625110212
 30
0.0
 11
879.7684410198966
 21
276.8593625110212
 31
0.0
  0
LINE
  8
ITEM_50
 10
1171.118785105481
 20
332.8593625110461
 30
0.0
 11
1671.118785105481
 21
332.8593625110461
 31
0.0
  0
LINE
  8
ITEM_50
 10
1671.118785105481
 20
332.8593625110461
 30
0.0
 11
1671.118785105481
 21
292.8593625110461
 31
0.0
  0
LINE
  8
ITEM_50
 10
1671.118785105481
 20
292.8593625110461
 30
0.0
 11
1171.118785105481
 21
292.8593625110461
 31
0.0
  0
LINE
  8
ITEM_50
 10
1171.118785105481
 20
292.8593625110461
 30
0.0
 11
1171.118785105481
 21
332.8593625110461
 31
0.0
  0
LINE
  8
ITEM_50
 10
1171.118785105481
 20
316.8593625110461
 30
0.0
 11
1671.118785105481
 21
316.8593625110461
 31
0.0
  0
LINE
  8
ITEM_50
 10
1671.118785105481
 20
308.8593625110461
 30
0.0
 11
1171.118785105481
 21
308.8593625110461
 31
0.0
  0
LINE
  8
ITEM_50
 10
1175.118785105481
 20
286.8593625110461
 30
0.0
 11
1175.118785105481
 21
276.8593625110461
 31
0.0
  0
LINE
  8
ITEM_50
 10
1207.118785105481
 20
286.8593625110461
 30
0.0
 11
1207.118785105481
 21
276.8593625110461
 31
0.0
  0
LINE
  8
ITEM_50
 10
1171.118785105481
 20
274.8593625110461
 30
0.0
 11
1211.083874975633
 21
274.8593625110461
 31
0.0
  0
LINE
  8
ITEM_50
 10
1172.09887555502
 20
248.8593625110461
 30
0.0
 11
1210.138694655942
 21
248.8593625110461
 31
0.0
  0
LINE
  8
ITEM_50
 10
1186.449877828363
 20
274.8593625110461
 30
0.0
 11
1186.563972339893
 21
248.8593625110461
 31
0.0
  0
LINE
  8
ITEM_50
 10
1183.465116458179
 20
274.8593625110461
 30
0.0
 11
1183.652149854624
 21
248.8593625110461
 31
0.0
  0
LINE
  8
ITEM_50
 10
1180.668813811162
 20
274.8593625110461
 30
0.0
 11
1180.924180709572
 21
248.8593625110461
 31
0.0
  0
LINE
  8
ITEM_50
 10
1178.129824138877
 20
274.8593625110461
 30
0.0
 11
1178.447236558701
 21
248.8593625110461
 31
0.0
  0
LINE
  8
ITEM_50
 10
1175.91066579348
 20
274.8593625110461
 30
0.0
 11
1176.282307987509
 21
248.8593625110461
 31
0.0
  0
LINE
  8
ITEM_50
 10
1174.065981818399
 20
274.8593625110461
 30
0.0
 11
1174.482702722407
 21
248.8593625110461
 31
0.0
  0
LINE
  8
ITEM_50
 10
1172.641194455255
 20
274.8593625110461
 30
0.0
 11
1173.092733017568
 21
248.8593625110461
 31
0.0
  0
LINE
  8
ITEM_50
 10
1171.671386697527
 20
274.8593625110461
 30
0.0
 11
1172.14662454017
 21
248.8593625110461
 31
0.0
  0
LINE
  8
ITEM_50
 10
1189.549603190924
 20
274.8593625110461
 30
0.0
 11
1189.587949432007
 21
248.8593625110461
 31
0.0
  0
LINE
  8
ITEM_50
 10
1210.566183513435
 20
274.8593625110461
 30
0.0
 11
1210.090945670792
 21
248.8593625110461
 31
0.0
  0
LINE
  8
ITEM_50
 10
1209.596375755707
 20
274.8593625110461
 30
0.0
 11
1209.144837193394
 21
248.8593625110461
 31
0.0
  0
LINE
  8
ITEM_50
 10
1208.171588392563
 20
274.8593625110461
 30
0.0
 11
1207.754867488555
 21
248.8593625110461
 31
0.0
  0
LINE
  8
ITEM_50
 10
1206.326904417482
 20
274.8593625110461
 30
0.0
 11
1205.955262223453
 21
248.8593625110461
 31
0.0
  0
LINE
  8
ITEM_50
 10
1204.107746072085
 20
274.8593625110461
 30
0.0
 11
1203.790333652261
 21
248.8593625110461
 31
0.0
  0
LINE
  8
ITEM_50
 10
1201.5687563998
 20
274.8593625110461
 30
0.0
 11
1201.31338950139
 21
248.8593625110461
 31
0.0
  0
LINE
  8
ITEM_50
 10
1198.772453752783
 20
274.8593625110461
 30
0.0
 11
1198.585420356338
 21
248.8593625110461
 31
0.0
  0
LINE
  8
ITEM_50
 10
1195.787692382599
 20
274.8593625110461
 30
0.0
 11
1195.673597871069
 21
248.8593625110461
 31
0.0
  0
LINE
  8
ITEM_50
 10
1192.687967020038
 20
274.8593625110461
 30
0.0
 11
1192.649620778955
 21
248.8593625110461
 31
0.0
  0
ARC
  8
ITEM_50
 10
1210.138694655942
 20
249.3593625110461
 30
0.0
 40
0.5
 50
270.0
 51
358.9999999999999
  0
ARC
  8
ITEM_50
 10
1172.09887555502
 20
249.3593625110461
 30
0.0
 40
0.5
 50
181.0
 51
270.0
  0
ARC
  8
ITEM_50
 10
1205.594371517424
 20
246.8593625110461
 30
0.0
 40
4.0
 50
269.9999999999999
 51
358.9999999999999
  0
ARC
  8
ITEM_50
 10
1176.643198693538
 20
246.8593625110461
 30
0.0
 40
4.0
 50
181.0
 51
270.0
  0
LINE
  8
ITEM_50
 10
1176.643198693538
 20
242.8593625110461
 30
0.0
 11
1205.594371517424
 21
242.8593625110461
 31
0.0
  0
LINE
  8
ITEM_50
 10
1209.629890959456
 20
248.8593625110461
 30
0.0
 11
1209.59376229805
 21
246.789552885297
 31
0.0
  0
LINE
  8
ITEM_50
 10
1211.11878510549
 20
276.8593625110461
 30
0.0
 11
1210.63861850352
 21
249.3506363078275
 31
0.0
  0
LINE
  8
ITEM_50
 10
1172.607679251506
 20
248.8593625110461
 30
0.0
 11
1172.643807912912
 21
246.789552885297
 31
0.0
  0
LINE
  8
ITEM_50
 10
1171.118785105472
 20
276.8593625110461
 30
0.0
 11
1171.598951707442
 21
249.3506363078275
 31
0.0
  0
LINE
  8
ITEM_50
 10
1171.118785105481
 20
276.8593625110461
 30
0.0
 11
1211.118785105481
 21
276.8593625110461
 31
0.0
  0
LINE
  8
ITEM_50
 10
1672.618785105481
 20
332.8593625110463
 30
0.0
 11
1671.118785105481
 21
332.8593625110463
 31
0.0
  0
LINE
  8
ITEM_50
 10
1671.118785105481
 20
332.8593625110463
 30
0.0
 11
1671.118785105481
 21
292.8593625110463
 31
0.0
  0
LINE
  8
ITEM_50
 10
1671.118785105481
 20
292.8593625110463
 30
0.0
 11
1672.618785105481
 21
292.8593625110463
 31
0.0
  0
ARC
  8
ITEM_50
 10
1672.618785105481
 20
295.3593625110463
 30
0.0
 40
2.5
 50
270.0
 51
0.0
  0
LINE
  8
ITEM_50
 10
1675.118785105481
 20
295.3593625110463
 30
0.0
 11
1675.118785105481
 21
330.3593625110463
 31
0.0
  0
ARC
  8
ITEM_50
 10
1672.618785105481
 20
330.3593625110463
 30
0.0
 40
2.5
 50
0.0
 51
89.99999999999998
  0
LINE
  8
ITEM_50
 10
1635.118785105481
 20
286.8593625110461
 30
0.0
 11
1635.118785105481
 21
276.8593625110461
 31
0.0
  0
LINE
  8
ITEM_50
 10
1667.118785105481
 20
286.8593625110461
 30
0.0
 11
1667.118785105481
 21
276.8593625110461
 31
0.0
  0
LINE
  8
ITEM_50
 10
1631.118785105481
 20
274.8593625110461
 30
0.0
 11
1671.083874975633
 21
274.8593625110461
 31
0.0
  0
LINE
  8
ITEM_50
 10
1632.09887555502
 20
248.8593625110461
 30
0.0
 11
1670.138694655942
 21
248.8593625110461
 31
0.0
  0
LINE
  8
ITEM_50
 10
1646.449877828363
 20
274.8593625110461
 30
0.0
 11
1646.563972339893
 21
248.8593625110461
 31
0.0
  0
LINE
  8
ITEM_50
 10
1643.465116458179
 20
274.8593625110461
 30
0.0
 11
1643.652149854624
 21
248.8593625110461
 31
0.0
  0
LINE
  8
ITEM_50
 10
1640.668813811162
 20
274.8593625110461
 30
0.0
 11
1640.924180709572
 21
248.8593625110461
 31
0.0
  0
LINE
  8
ITEM_50
 10
1638.129824138877
 20
274.8593625110461
 30
0.0
 11
1638.447236558701
 21
248.8593625110461
 31
0.0
  0
LINE
  8
ITEM_50
 10
1635.91066579348
 20
274.8593625110461
 30
0.0
 11
1636.282307987509
 21
248.8593625110461
 31
0.0
  0
LINE
  8
ITEM_50
 10
1634.065981818399
 20
274.8593625110461
 30
0.0
 11
1634.482702722407
 21
248.8593625110461
 31
0.0
  0
LINE
  8
ITEM_50
 10
1632.641194455255
 20
274.8593625110461
 30
0.0
 11
1633.092733017568
 21
248.8593625110461
 31
0.0
  0
LINE
  8
ITEM_50
 10
1631.671386697527
 20
274.8593625110461
 30
0.0
 11
1632.14662454017
 21
248.8593625110461
 31
0.0
  0
LINE
  8
ITEM_50
 10
1649.549603190924
 20
274.8593625110461
 30
0.0
 11
1649.587949432007
 21
248.8593625110461
 31
0.0
  0
LINE
  8
ITEM_50
 10
1670.566183513435
 20
274.8593625110461
 30
0.0
 11
1670.090945670792
 21
248.8593625110461
 31
0.0
  0
LINE
  8
ITEM_50
 10
1669.596375755707
 20
274.8593625110461
 30
0.0
 11
1669.144837193394
 21
248.8593625110461
 31
0.0
  0
LINE
  8
ITEM_50
 10
1668.171588392563
 20
274.8593625110461
 30
0.0
 11
1667.754867488555
 21
248.8593625110461
 31
0.0
  0
LINE
  8
ITEM_50
 10
1666.326904417482
 20
274.8593625110461
 30
0.0
 11
1665.955262223453
 21
248.8593625110461
 31
0.0
  0
LINE
  8
ITEM_50
 10
1664.107746072085
 20
274.8593625110461
 30
0.0
 11
1663.790333652261
 21
248.8593625110461
 31
0.0
  0
LINE
  8
ITEM_50
 10
1661.5687563998
 20
274.8593625110461
 30
0.0
 11
1661.31338950139
 21
248.8593625110461
 31
0.0
  0
LINE
  8
ITEM_50
 10
1658.772453752783
 20
274.8593625110461
 30
0.0
 11
1658.585420356338
 21
248.8593625110461
 31
0.0
  0
LINE
  8
ITEM_50
 10
1655.787692382599
 20
274.8593625110461
 30
0.0
 11
1655.673597871069
 21
248.8593625110461
 31
0.0
  0
LINE
  8
ITEM_50
 10
1652.687967020038
 20
274.8593625110461
 30
0.0
 11
1652.649620778955
 21
248.8593625110461
 31
0.0
  0
ARC
  8
ITEM_50
 10
1670.138694655942
 20
249.3593625110461
 30
0.0
 40
0.5
 50
270.0
 51
358.9999999999999
  0
ARC
  8
ITEM_50
 10
1632.09887555502
 20
249.3593625110461
 30
0.0
 40
0.5
 50
181.0
 51
270.0
  0
ARC
  8
ITEM_50
 10
1665.594371517424
 20
246.8593625110461
 30
0.0
 40
4.0
 50
269.9999999999999
 51
358.9999999999999
  0
ARC
  8
ITEM_50
 10
1636.643198693538
 20
246.8593625110461
 30
0.0
 40
4.0
 50
181.0
 51
270.0
  0
LINE
  8
ITEM_50
 10
1636.643198693538
 20
242.8593625110461
 30
0.0
 11
1665.594371517424
 21
242.8593625110461
 31
0.0
  0
LINE
  8
ITEM_50
 10
1669.629890959456
 20
248.8593625110461
 30
0.0
 11
1669.59376229805
 21
246.789552885297
 31
0.0
  0
LINE
  8
ITEM_50
 10
1671.11878510549
 20
276.8593625110461
 30
0.0
 11
1670.63861850352
 21
249.3506363078275
 31
0.0
  0
LINE
  8
ITEM_50
 10
1632.607679251506
 20
248.8593625110461
 30
0.0
 11
1632.643807912912
 21
246.789552885297
 31
0.0
  0
LINE
  8
ITEM_50
 10
1631.118785105472
 20
276.8593625110461
 30
0.0
 11
1631.598951707442
 21
249.3506363078275
 31
0.0
  0
LINE
  8
ITEM_50
 10
1631.118785105481
 20
276.8593625110461
 30
0.0
 11
1671.118785105481
 21
276.8593625110461
 31
0.0
  0
LINE
  8
ITEM_50
 10
1351.118785105457
 20
332.8593625110461
 30
0.0
 11
1271.118785105457
 21
332.8593625110461
 31
0.0
  0
LINE
  8
ITEM_50
 10
1271.118785105457
 20
332.8593625110461
 30
0.0
 11
1271.118785105457
 21
1202.859362511046
 31
0.0
  0
LINE
  8
ITEM_50
 10
1271.118785105457
 20
1202.859362511046
 30
0.0
 11
1351.118785105457
 21
1202.859362511046
 31
0.0
  0
LINE
  8
ITEM_50
 10
1351.118785105457
 20
1202.859362511046
 30
0.0
 11
1351.118785105457
 21
332.8593625110461
 31
0.0
  0
LINE
  8
ITEM_50
 10
1335.118785105457
 20
332.8593625110461
 30
0.0
 11
1335.118785105457
 21
1202.859362511046
 31
0.0
  0
LINE
  8
ITEM_50
 10
1327.118785105457
 20
1202.859362511046
 30
0.0
 11
1327.118785105457
 21
332.8593625110461
 31
0.0
  0
LINE
  8
ITEM_50
 10
1287.118785105457
 20
332.8593625110461
 30
0.0
 11
1287.118785105457
 21
1202.859362511046
 31
0.0
  0
LINE
  8
ITEM_50
 10
1295.118785105457
 20
1202.859362511046
 30
0.0
 11
1295.118785105457
 21
332.8593625110461
 31
0.0
  0
LINE
  8
ITEM_50
 10
1171.118785105481
 20
1202.859362511046
 30
0.0
 11
1771.118785105481
 21
1202.859362511046
 31
0.0
  0
LINE
  8
ITEM_50
 10
1771.118785105481
 20
1202.859362511046
 30
0.0
 11
1771.118785105481
 21
1242.859362511046
 31
0.0
  0
LINE
  8
ITEM_50
 10
1771.118785105481
 20
1242.859362511046
 30
0.0
 11
1171.118785105481
 21
1242.859362511046
 31
0.0
  0
LINE
  8
ITEM_50
 10
1171.118785105481
 20
1242.859362511046
 30
0.0
 11
1171.118785105481
 21
1202.859362511046
 31
0.0
  0
LINE
  8
ITEM_50
 10
1171.118785105481
 20
1218.859362511046
 30
0.0
 11
1771.118785105481
 21
1218.859362511046
 31
0.0
  0
LINE
  8
ITEM_50
 10
1771.118785105481
 20
1226.859362511046
 30
0.0
 11
1171.118785105481
 21
1226.859362511046
 31
0.0
  0
LINE
  8
ITEM_50
 10
79.76844101989667
 20
43.701638631662
 30
0.0
 11
119.7684410198966
 21
43.701638631662
 31
0.0
  0
LINE
  8
ITEM_50
 10
119.7684410198966
 20
43.701638631662
 30
0.0
 11
119.7684410198966
 21
-556.2983613683379
 31
0.0
  0
LINE
  8
ITEM_50
 10
119.7684410198966
 20
-556.2983613683379
 30
0.0
 11
79.76844101989667
 21
-556.2983613683379
 31
0.0
  0
LINE
  8
ITEM_50
 10
79.76844101989667
 20
-556.2983613683379
 30
0.0
 11
79.76844101989667
 21
43.701638631662
 31
0.0
  0
LINE
  8
ITEM_50
 10
95.76844101989667
 20
43.701638631662
 30
0.0
 11
95.76844101989667
 21
-556.2983613683379
 31
0.0
  0
LINE
  8
ITEM_50
 10
103.7684410198966
 20
-556.2983613683379
 30
0.0
 11
103.7684410198966
 21
43.701638631662
 31
0.0
  0
LINE
  8
ITEM_50
 10
839.7684410198967
 20
43.701638631662
 30
0.0
 11
879.7684410198967
 21
43.701638631662
 31
0.0
  0
LINE
  8
ITEM_50
 10
879.7684410198967
 20
43.701638631662
 30
0.0
 11
879.7684410198967
 21
-556.2983613683379
 31
0.0
  0
LINE
  8
ITEM_50
 10
879.7684410198967
 20
-556.2983613683379
 30
0.0
 11
839.7684410198967
 21
-556.2983613683379
 31
0.0
  0
LINE
  8
ITEM_50
 10
839.7684410198967
 20
-556.2983613683379
 30
0.0
 11
839.7684410198967
 21
43.701638631662
 31
0.0
  0
LINE
  8
ITEM_50
 10
855.7684410198967
 20
43.701638631662
 30
0.0
 11
855.7684410198967
 21
-556.2983613683379
 31
0.0
  0
LINE
  8
ITEM_50
 10
863.7684410198967
 20
-556.2983613683379
 30
0.0
 11
863.7684410198967
 21
43.701638631662
 31
0.0
  0
LINE
  8
ITEM_50
 10
119.7684410198966
 20
-556.2983613683379
 30
0.0
 11
839.7684410198967
 21
-556.2983613683379
 31
0.0
  0
LINE
  8
ITEM_50
 10
839.7684410198967
 20
-556.2983613683379
 30
0.0
 11
839.7684410198967
 21
-516.2983613683379
 31
0.0
  0
LINE
  8
ITEM_50
 10
839.7684410198967
 20
-516.2983613683379
 30
0.0
 11
119.7684410198966
 21
-516.2983613683379
 31
0.0
  0
LINE
  8
ITEM_50
 10
119.7684410198966
 20
-516.2983613683379
 30
0.0
 11
119.7684410198966
 21
-556.2983613683379
 31
0.0
  0
LINE
  8
ITEM_50
 10
119.7684410198966
 20
-540.2983613683379
 30
0.0
 11
839.7684410198967
 21
-540.2983613683379
 31
0.0
  0
LINE
  8
ITEM_50
 10
839.7684410198967
 20
-532.2983613683379
 30
0.0
 11
119.7684410198966
 21
-532.2983613683379
 31
0.0
  0
LINE
  8
ITEM_50
 10
119.7684410198966
 20
43.701638631662
 30
0.0
 11
839.7684410198967
 21
43.701638631662
 31
0.0
  0
LINE
  8
ITEM_50
 10
839.7684410198967
 20
43.701638631662
 30
0.0
 11
839.7684410198967
 21
3.701638631662
 31
0.0
  0
LINE
  8
ITEM_50
 10
839.7684410198967
 20
3.701638631662
 30
0.0
 11
119.7684410198966
 21
3.701638631662
 31
0.0
  0
LINE
  8
ITEM_50
 10
119.7684410198966
 20
3.701638631662
 30
0.0
 11
119.7684410198966
 21
43.701638631662
 31
0.0
  0
LINE
  8
ITEM_50
 10
119.7684410198966
 20
27.701638631662
 30
0.0
 11
839.7684410198967
 21
27.701638631662
 31
0.0
  0
LINE
  8
ITEM_50
 10
839.7684410198967
 20
19.701638631662
 30
0.0
 11
119.7684410198966
 21
19.701638631662
 31
0.0
  0
LINE
  8
ITEM_50
 10
121.2684410198966
 20
-514.7983613683379
 30
0.0
 11
838.2684410198967
 21
-514.7983613683379
 31
0.0
  0
LINE
  8
ITEM_50
 10
838.2684410198967
 20
-514.7983613683379
 30
0.0
 11
838.2684410198967
 21
2.201638631662035
 31
0.0
  0
LINE
  8
ITEM_50
 10
838.2684410198967
 20
2.201638631662035
 30
0.0
 11
121.2684410198966
 21
2.201638631662035
 31
0.0
  0
LINE
  8
ITEM_50
 10
121.2684410198966
 20
2.201638631662035
 30
0.0
 11
121.2684410198966
 21
-514.7983613683379
 31
0.0
  0
LINE
  8
ITEM_50
 10
119.7684410198967
 20
-557.7983613683379
 30
0.0
 11
119.7684410198967
 21
-556.2983613683379
 31
0.0
  0
LINE
  8
ITEM_50
 10
119.7684410198967
 20
-556.2983613683379
 30
0.0
 11
79.76844101989675
 21
-556.2983613683379
 31
0.0
  0
LINE
  8
ITEM_50
 10
79.76844101989675
 20
-556.2983613683379
 30
0.0
 11
79.76844101989675
 21
-557.7983613683379
 31
0.0
  0
ARC
  8
ITEM_50
 10
82.26844101989675
 20
-557.7983613683379
 30
0.0
 40
2.5
 50
180.0
 51
270.0
  0
LINE
  8
ITEM_50
 10
82.26844101989675
 20
-560.2983613683379
 30
0.0
 11
117.2684410198967
 21
-560.2983613683379
 31
0.0
  0
ARC
  8
ITEM_50
 10
117.2684410198967
 20
-557.7983613683379
 30
0.0
 40
2.5
 50
270.0
 51
0.0
  0
LINE
  8
ITEM_50
 10
79.76844101989664
 20
45.20163863166188
 30
0.0
 11
79.76844101989664
 21
43.70163863166188
 31
0.0
  0
LINE
  8
ITEM_50
 10
79.76844101989664
 20
43.70163863166188
 30
0.0
 11
119.7684410198966
 21
43.70163863166188
 31
0.0
  0
LINE
  8
ITEM_50
 10
119.7684410198966
 20
43.70163863166188
 30
0.0
 11
119.7684410198966
 21
45.20163863166188
 31
0.0
  0
ARC
  8
ITEM_50
 10
117.2684410198966
 20
45.20163863166182
 30
0.0
 40
2.5
 50
0.0
 51
90.0
  0
LINE
  8
ITEM_50
 10
117.2684410198966
 20
47.70163863166188
 30
0.0
 11
82.26844101989664
 21
47.70163863166188
 31
0.0
  0
ARC
  8
ITEM_50
 10
82.26844101989664
 20
45.20163863166188
 30
0.0
 40
2.5
 50
90.0
 51
180.0
  0
LINE
  8
ITEM_50
 10
879.7684410198967
 20
-557.7983613683379
 30
0.0
 11
879.7684410198967
 21
-556.2983613683379
 31
0.0
  0
LINE
  8
ITEM_50
 10
879.7684410198967
 20
-556.2983613683379
 30
0.0
 11
839.7684410198967
 21
-556.2983613683379
 31
0.0
  0
LINE
  8
ITEM_50
 10
839.7684410198967
 20
-556.2983613683379
 30
0.0
 11
839.7684410198967
 21
-557.7983613683379
 31
0.0
  0
ARC
  8
ITEM_50
 10
842.2684410198967
 20
-557.7983613683379
 30
0.0
 40
2.5
 50
180.0
 51
270.0
  0
LINE
  8
ITEM_50
 10
842.2684410198967
 20
-560.2983613683379
 30
0.0
 11
877.2684410198967
 21
-560.2983613683379
 31
0.0
  0
ARC
  8
ITEM_50
 10
877.2684410198967
 20
-557.7983613683379
 30
0.0
 40
2.5
 50
270.0
 51
0.0
  0
LINE
  8
ITEM_50
 10
839.7684410198967
 20
45.20163863166188
 30
0.0
 11
839.7684410198967
 21
43.70163863166188
 31
0.0
  0
LINE
  8
ITEM_50
 10
839.7684410198967
 20
43.70163863166188
 30
0.0
 11
879.7684410198967
 21
43.70163863166188
 31
0.0
  0
LINE
  8
ITEM_50
 10
879.7684410198967
 20
43.70163863166188
 30
0.0
 11
879.7684410198967
 21
45.20163863166188
 31
0.0
  0
ARC
  8
ITEM_50
 10
877.2684410198967
 20
45.20163863166182
 30
0.0
 40
2.5
 50
0.0
 51
90.0
  0
LINE
  8
ITEM_50
 10
877.2684410198967
 20
47.70163863166188
 30
0.0
 11
842.2684410198967
 21
47.70163863166188
 31
0.0
  0
ARC
  8
ITEM_50
 10
842.2684410198967
 20
45.20163863166188
 30
0.0
 40
2.5
 50
90.0
 51
180.0
  0
LINE
  8
ITEM_50
 10
839.7684410198966
 20
292.8593625110212
 30
0.0
 11
839.7684410198966
 21
286.8593625110212
 31
0.0
  0
LINE
  8
ITEM_50
 10
879.7684410198966
 20
292.8593625110212
 30
0.0
 11
839.7684410198966
 21
292.8593625110212
 31
0.0
  0
LINE
  8
ITEM_50
 10
879.7684410198966
 20
286.8593625110212
 30
0.0
 11
879.7684410198966
 21
292.8593625110212
 31
0.0
  0
LINE
  8
ITEM_50
 10
839.7684410198966
 20
286.8593625110212
 30
0.0
 11
879.7684410198966
 21
286.8593625110212
 31
0.0
  0
LINE
  8
ITEM_50
 10
1171.118785105481
 20
292.8593625110461
 30
0.0
 11
1171.118785105481
 21
286.8593625110461
 31
0.0
  0
LINE
  8
ITEM_50
 10
1211.118785105481
 20
292.8593625110461
 30
0.0
 11
1171.118785105481
 21
292.8593625110461
 31
0.0
  0
LINE
  8
ITEM_50
 10
1211.118785105481
 20
286.8593625110461
 30
0.0
 11
1211.118785105481
 21
292.8593625110461
 31
0.0
  0
LINE
  8
ITEM_50
 10
1171.118785105481
 20
286.8593625110461
 30
0.0
 11
1211.118785105481
 21
286.8593625110461
 31
0.0
  0
LINE
  8
ITEM_50
 10
1169.618785105481
 20
292.8593625110461
 30
0.0
 11
1171.118785105481
 21
292.8593625110461
 31
0.0
  0
LINE
  8
ITEM_50
 10
1171.118785105481
 20
292.8593625110461
 30
0.0
 11
1171.118785105481
 21
332.8593625110461
 31
0.0
  0
LINE
  8
ITEM_50
 10
1171.118785105481
 20
332.8593625110461
 30
0.0
 11
1169.618785105481
 21
332.8593625110461
 31
0.0
  0
ARC
  8
ITEM_50
 10
1169.618785105481
 20
330.3593625110461
 30
0.0
 40
2.5
 50
90.0
 51
180.0
  0
LINE
  8
ITEM_50
 10
1167.118785105481
 20
330.3593625110461
 30
0.0
 11
1167.118785105481
 21
295.3593625110461
 31
0.0
  0
ARC
  8
ITEM_50
 10
1169.618785105481
 20
295.3593625110461
 30
0.0
 40
2.5
 50
180.0
 51
270.0
  0
LINE
  8
ITEM_50
 10
1631.118785105481
 20
292.8593625110461
 30
0.0
 11
1631.118785105481
 21
286.8593625110461
 31
0.0
  0
LINE
  8
ITEM_50
 10
1671.118785105481
 20
292.8593625110461
 30
0.0
 11
1631.118785105481
 21
292.8593625110461
 31
0.0
  0
LINE
  8
ITEM_50
 10
1671.118785105481
 20
286.8593625110461
 30
0.0
 11
1671.118785105481
 21
292.8593625110461
 31
0.0
  0
LINE
  8
ITEM_50
 10
1631.118785105481
 20
286.8593625110461
 30
0.0
 11
1671.118785105481
 21
286.8593625110461
 31
0.0
  0
LINE
  8
ITEM_50
 10
1169.618785105481
 20
1202.859362511046
 30
0.0
 11
1171.118785105481
 21
1202.859362511046
 31
0.0
  0
LINE
  8
ITEM_50
 10
1171.118785105481
 20
1202.859362511046
 30
0.0
 11
1171.118785105481
 21
1242.859362511046
 31
0.0
  0
LINE
  8
ITEM_50
 10
1171.118785105481
 20
1242.859362511046
 30
0.0
 11
1169.618785105481
 21
1242.859362511046
 31
0.0
  0
ARC
  8
ITEM_50
 10
1169.618785105481
 20
1240.359362511046
 30
0.0
 40
2.5
 50
90.0
 51
180.0
  0
LINE
  8
ITEM_50
 10
1167.118785105481
 20
1240.359362511046
 30
0.0
 11
1167.118785105481
 21
1205.359362511046
 31
0.0
  0
ARC
  8
ITEM_50
 10
1169.618785105481
 20
1205.359362511046
 30
0.0
 40
2.5
 50
180.0
 51
270.0
  0
LINE
  8
ITEM_50
 10
1772.618785105481
 20
1242.859362511046
 30
0.0
 11
1771.118785105481
 21
1242.859362511046
 31
0.0
  0
LINE
  8
ITEM_50
 10
1771.118785105481
 20
1242.859362511046
 30
0.0
 11
1771.118785105481
 21
1202.859362511046
 31
0.0
  0
LINE
  8
ITEM_50
 10
1771.118785105481
 20
1202.859362511046
 30
0.0
 11
1772.618785105481
 21
1202.859362511046
 31
0.0
  0
ARC
  8
ITEM_50
 10
1772.618785105481
 20
1205.359362511046
 30
0.0
 40
2.5
 50
270.0
 51
0.0
  0
LINE
  8
ITEM_50
 10
1775.118785105481
 20
1205.359362511046
 30
0.0
 11
1775.118785105481
 21
1240.359362511046
 31
0.0
  0
ARC
  8
ITEM_50
 10
1772.618785105481
 20
1240.359362511046
 30
0.0
 40
2.5
 50
0.0
 51
89.99999999999998
  0
ENDSEC
  0
EOF
